ISO-10303-21;
HEADER;
FILE_DESCRIPTION(('CATIA V5 STEP Exchange'),'2;1');

FILE_NAME('C:\\Users\\Astroboy\\Desktop\\RIDIX\\10_SCORRIMENTI_EUROPE\\10_COLONNE\\RDCO101\\STEP\\RDCO101.17185.stp','2017-05-24T20:57:56+00:00',('none'),('none'),'CATIA Version 5 Release 19 GA (IN-10)','CATIA V5 STEP AP203','none');

FILE_SCHEMA(('CONFIG_CONTROL_DESIGN'));

ENDSEC;
/* file written by CATIA V5R19 */
DATA;
#5=PRODUCT('RDCO101.17185','','COLONNA GUIDA\X2\000D\X0\\X2\000A\X0\SCORRIMENTI EUROPE\X2\000D\X0\\X2\000A\X0\',(#2)) ;
#1=APPLICATION_CONTEXT('configuration controlled 3D design of mechanical parts and assemblies') ;
#14=PRODUCT_DEFINITION('',' ',#6,#3) ;
#16=SECURITY_CLASSIFICATION(' ',' ',#15) ;
#15=SECURITY_CLASSIFICATION_LEVEL('unclassified') ;
#47=CARTESIAN_POINT(' ',(0.,0.,0.)) ;
#51=CARTESIAN_POINT('Line Origine',(0.,0.,0.)) ;
#55=CARTESIAN_POINT('Limit',(0.,0.,0.)) ;
#56=CARTESIAN_POINT('Limit',(20.,0.,0.)) ;
#63=CARTESIAN_POINT('Line Origine',(0.,0.,0.)) ;
#67=CARTESIAN_POINT('Limit',(0.,0.,0.)) ;
#68=CARTESIAN_POINT('Limit',(0.,20.,0.)) ;
#72=CARTESIAN_POINT('Line Origine',(0.,0.,0.)) ;
#76=CARTESIAN_POINT('Limit',(0.,0.,0.)) ;
#77=CARTESIAN_POINT('Limit',(0.,0.,20.)) ;
#81=CARTESIAN_POINT('Punto.4',(0.,0.,0.)) ;
#83=CARTESIAN_POINT('Axis2P3D Location',(0.,0.,52.5)) ;
#88=CARTESIAN_POINT('Axis2P3D Location',(0.,0.,0.)) ;
#92=CARTESIAN_POINT('Vertex',(-6.58186921418,3.59569153953,0.)) ;
#94=CARTESIAN_POINT('Vertex',(6.58186921418,-3.59569153953,0.)) ;
#97=CARTESIAN_POINT('Line Origine',(-6.58186921418,3.59569153953,1.5)) ;
#101=CARTESIAN_POINT('Vertex',(-6.58186921418,3.59569153953,3.)) ;
#104=CARTESIAN_POINT('Axis2P3D Location',(0.,0.,3.)) ;
#108=CARTESIAN_POINT('Vertex',(6.58186921418,-3.59569153953,3.)) ;
#111=CARTESIAN_POINT('Line Origine',(6.58186921418,-3.59569153953,1.5)) ;
#123=CARTESIAN_POINT('Axis2P3D Location',(0.,0.,0.)) ;
#128=CARTESIAN_POINT('Axis2P3D Location',(0.,0.,3.)) ;
#140=CARTESIAN_POINT('Axis2P3D Location',(0.,0.,52.5)) ;
#145=CARTESIAN_POINT('Axis2P3D Location',(0.,0.,3.)) ;
#149=CARTESIAN_POINT('Vertex',(-7.45945177607,4.07511707814,3.)) ;
#151=CARTESIAN_POINT('Vertex',(7.45945177607,-4.07511707814,3.)) ;
#154=CARTESIAN_POINT('Line Origine',(-7.45945177607,4.07511707814,72.5)) ;
#158=CARTESIAN_POINT('Vertex',(-7.45945177607,4.07511707814,142.)) ;
#161=CARTESIAN_POINT('Axis2P3D Location',(0.,0.,142.)) ;
#165=CARTESIAN_POINT('Vertex',(7.45945177607,-4.07511707814,142.)) ;
#168=CARTESIAN_POINT('Line Origine',(7.45945177607,-4.07511707814,72.5)) ;
#180=CARTESIAN_POINT('Axis2P3D Location',(0.,0.,3.)) ;
#185=CARTESIAN_POINT('Axis2P3D Location',(0.,0.,142.)) ;
#197=CARTESIAN_POINT('Axis2P3D Location',(0.,0.,145.)) ;
#202=CARTESIAN_POINT('Line Origine',(-6.14307793323,3.35597877023,143.5)) ;
#206=CARTESIAN_POINT('Vertex',(-4.8267040904,2.63684046232,145.)) ;
#209=CARTESIAN_POINT('Axis2P3D Location',(0.,0.,145.)) ;
#213=CARTESIAN_POINT('Vertex',(4.8267040904,-2.63684046232,145.)) ;
#216=CARTESIAN_POINT('Line Origine',(6.14307793323,-3.35597877023,143.5)) ;
#228=CARTESIAN_POINT('Axis2P3D Location',(0.,0.,145.)) ;
#240=CARTESIAN_POINT('Axis2P3D Location',(-7.5,0.,3.)) ;
#254=CARTESIAN_POINT('Axis2P3D Location',(-5.5,0.,145.)) ;
#264=CARTESIAN_POINT('Axis2P3D Location',(-14.,0.,0.)) ;
#269=CARTESIAN_POINT('Axis2P3D Location',(0.,2.81072537918E-015,0.)) ;
#273=CARTESIAN_POINT('Vertex',(11.8473645024,-6.47224492329,0.)) ;
#275=CARTESIAN_POINT('Vertex',(-11.8473645855,6.47224477116,0.)) ;
#278=CARTESIAN_POINT('Axis2P3D Location',(1.7763568394E-015,-4.16333634234E-015,0.)) ;
#292=CARTESIAN_POINT('Axis2P3D Location',(3.73034936274E-014,-4.61852778244E-014,13.5)) ;
#297=CARTESIAN_POINT('Line Origine',(-12.066760226,6.59210115581,-0.25)) ;
#301=CARTESIAN_POINT('Vertex',(-12.2861558665,6.71195754046,-0.5)) ;
#304=CARTESIAN_POINT('Line Origine',(12.0667601413,-6.59210131076,-0.25)) ;
#308=CARTESIAN_POINT('Vertex',(12.2861558665,-6.71195754046,-0.5)) ;
#311=CARTESIAN_POINT('Axis2P3D Location',(-1.32528632077E-028,3.5527136788E-015,-0.5)) ;
#323=CARTESIAN_POINT('Axis2P3D Location',(2.48689957516E-014,1.44773082411E-013,13.5)) ;
#328=CARTESIAN_POINT('Axis2P3D Location',(4.41762106924E-029,-4.4408920985E-015,-0.5)) ;
#340=CARTESIAN_POINT('Axis2P3D Location',(-3.74193253135E-014,0.,-40.)) ;
#345=CARTESIAN_POINT('Axis2P3D Location',(-1.69789949619E-015,1.22124532709E-015,-40.)) ;
#349=CARTESIAN_POINT('Vertex',(-11.8473645855,6.47224477116,-40.)) ;
#351=CARTESIAN_POINT('Vertex',(11.8473645024,-6.47224492329,-40.)) ;
#354=CARTESIAN_POINT('Axis2P3D Location',(1.54187180115E-015,-1.12053638895E-015,-40.)) ;
#364=CARTESIAN_POINT('Axis2P3D Location',(0.,0.,52.5)) ;
#369=CARTESIAN_POINT('Line Origine',(-12.2861558665,6.71195754046,-20.)) ;
#373=CARTESIAN_POINT('Vertex',(-12.2861558665,6.71195754046,-39.5)) ;
#376=CARTESIAN_POINT('Line Origine',(12.2861558665,-6.71195754046,-20.)) ;
#380=CARTESIAN_POINT('Vertex',(12.2861558665,-6.71195754046,-39.5)) ;
#383=CARTESIAN_POINT('Axis2P3D Location',(0.,0.,-39.5)) ;
#395=CARTESIAN_POINT('Axis2P3D Location',(0.,0.,-39.5)) ;
#407=CARTESIAN_POINT('Axis2P3D Location',(3.8635761257E-014,-1.93622895495E-013,-53.5)) ;
#412=CARTESIAN_POINT('Line Origine',(-12.066760226,6.59210115581,-39.75)) ;
#417=CARTESIAN_POINT('Line Origine',(12.066760226,-6.59210115581,-39.75)) ;
#429=CARTESIAN_POINT('Axis2P3D Location',(-2.39808173319E-014,-2.39808173319E-014,-53.5)) ;
#52=DIRECTION('Vector Direction',(1.,0.,0.)) ;
#64=DIRECTION('Vector Direction',(0.,1.,0.)) ;
#73=DIRECTION('Vector Direction',(0.,0.,1.)) ;
#84=DIRECTION('Axis2P3D Direction',(0.,0.,-1.)) ;
#85=DIRECTION('Axis2P3D XDirection',(-0.87758256189,0.479425538604,-0.)) ;
#89=DIRECTION('Axis2P3D Direction',(0.,0.,-1.)) ;
#98=DIRECTION('Vector Direction',(0.,0.,-1.)) ;
#105=DIRECTION('Axis2P3D Direction',(0.,0.,-1.)) ;
#112=DIRECTION('Vector Direction',(0.,0.,-1.)) ;
#124=DIRECTION('Axis2P3D Direction',(0.,0.,-1.)) ;
#129=DIRECTION('Axis2P3D Direction',(0.,0.,-1.)) ;
#141=DIRECTION('Axis2P3D Direction',(0.,0.,-1.)) ;
#142=DIRECTION('Axis2P3D XDirection',(-0.87758256189,0.479425538604,-0.)) ;
#146=DIRECTION('Axis2P3D Direction',(0.,0.,-1.)) ;
#155=DIRECTION('Vector Direction',(0.,0.,-1.)) ;
#162=DIRECTION('Axis2P3D Direction',(0.,0.,-1.)) ;
#169=DIRECTION('Vector Direction',(0.,0.,-1.)) ;
#181=DIRECTION('Axis2P3D Direction',(0.,0.,-1.)) ;
#186=DIRECTION('Axis2P3D Direction',(0.,0.,-1.)) ;
#198=DIRECTION('Axis2P3D Direction',(0.,0.,-1.)) ;
#199=DIRECTION('Axis2P3D XDirection',(-0.87758256189,0.479425538604,0.)) ;
#203=DIRECTION('Vector Direction',(-0.620544580564,0.339005049421,-0.707106781187)) ;
#210=DIRECTION('Axis2P3D Direction',(0.,0.,-1.)) ;
#217=DIRECTION('Vector Direction',(0.620544580564,-0.339005049421,-0.707106781187)) ;
#229=DIRECTION('Axis2P3D Direction',(0.,0.,-1.)) ;
#241=DIRECTION('Axis2P3D Direction',(0.,0.,-1.)) ;
#242=DIRECTION('Axis2P3D XDirection',(1.,0.,0.)) ;
#255=DIRECTION('Axis2P3D Direction',(0.,0.,-1.)) ;
#256=DIRECTION('Axis2P3D XDirection',(1.,0.,0.)) ;
#265=DIRECTION('Axis2P3D Direction',(0.,0.,-1.)) ;
#266=DIRECTION('Axis2P3D XDirection',(1.,0.,0.)) ;
#270=DIRECTION('Axis2P3D Direction',(0.,0.,-1.)) ;
#279=DIRECTION('Axis2P3D Direction',(0.,0.,-1.)) ;
#293=DIRECTION('Axis2P3D Direction',(-2.6645352591E-015,3.5527136788E-015,-1.)) ;
#294=DIRECTION('Axis2P3D XDirection',(-0.87758256189,0.479425538604,4.08297594949E-015)) ;
#298=DIRECTION('Vector Direction',(-0.620544580564,0.339005049421,-0.707106781187)) ;
#305=DIRECTION('Vector Direction',(0.62054457621,-0.33900505739,-0.707106781187)) ;
#312=DIRECTION('Axis2P3D Direction',(8.8231238175E-016,1.61506198151E-015,-1.)) ;
#324=DIRECTION('Axis2P3D Direction',(-1.7763568394E-015,-1.06581410364E-014,-1.)) ;
#325=DIRECTION('Axis2P3D XDirection',(0.99998959959,0.0045607797653,-1.84392462235E-015)) ;
#329=DIRECTION('Axis2P3D Direction',(4.85719789294E-017,-1.06498178514E-014,-1.)) ;
#341=DIRECTION('Axis2P3D Direction',(0.,0.,-1.)) ;
#342=DIRECTION('Axis2P3D XDirection',(1.,0.,0.)) ;
#346=DIRECTION('Axis2P3D Direction',(0.,0.,-1.)) ;
#355=DIRECTION('Axis2P3D Direction',(0.,0.,-1.)) ;
#365=DIRECTION('Axis2P3D Direction',(0.,0.,-1.)) ;
#366=DIRECTION('Axis2P3D XDirection',(-0.87758256189,0.479425538604,-0.)) ;
#370=DIRECTION('Vector Direction',(0.,0.,-1.)) ;
#377=DIRECTION('Vector Direction',(0.,0.,-1.)) ;
#384=DIRECTION('Axis2P3D Direction',(0.,0.,-1.)) ;
#396=DIRECTION('Axis2P3D Direction',(0.,0.,-1.)) ;
#408=DIRECTION('Axis2P3D Direction',(-2.6645352591E-015,1.42108547152E-014,1.)) ;
#409=DIRECTION('Axis2P3D XDirection',(-0.87758256189,0.479425538604,-9.08791421016E-015)) ;
#413=DIRECTION('Vector Direction',(-0.620544580564,0.339005049421,0.707106781187)) ;
#418=DIRECTION('Vector Direction',(0.620544580564,-0.339005049421,0.707106781187)) ;
#430=DIRECTION('Axis2P3D Direction',(1.7763568394E-015,1.7763568394E-015,1.)) ;
#431=DIRECTION('Axis2P3D XDirection',(0.99998959959,0.0045607797653,-1.84392462235E-015)) ;
#48=AXIS2_PLACEMENT_3D(' ',#47,$,$) ;
#86=AXIS2_PLACEMENT_3D('Cylinder Axis2P3D',#83,#84,#85) ;
#90=AXIS2_PLACEMENT_3D('Circle Axis2P3D',#88,#89,$) ;
#106=AXIS2_PLACEMENT_3D('Circle Axis2P3D',#104,#105,$) ;
#125=AXIS2_PLACEMENT_3D('Circle Axis2P3D',#123,#124,$) ;
#130=AXIS2_PLACEMENT_3D('Circle Axis2P3D',#128,#129,$) ;
#143=AXIS2_PLACEMENT_3D('Cylinder Axis2P3D',#140,#141,#142) ;
#147=AXIS2_PLACEMENT_3D('Circle Axis2P3D',#145,#146,$) ;
#163=AXIS2_PLACEMENT_3D('Circle Axis2P3D',#161,#162,$) ;
#182=AXIS2_PLACEMENT_3D('Circle Axis2P3D',#180,#181,$) ;
#187=AXIS2_PLACEMENT_3D('Circle Axis2P3D',#185,#186,$) ;
#200=AXIS2_PLACEMENT_3D('Cone Axis2P3D',#197,#198,#199) ;
#211=AXIS2_PLACEMENT_3D('Circle Axis2P3D',#209,#210,$) ;
#230=AXIS2_PLACEMENT_3D('Circle Axis2P3D',#228,#229,$) ;
#243=AXIS2_PLACEMENT_3D('Plane Axis2P3D',#240,#241,#242) ;
#257=AXIS2_PLACEMENT_3D('Plane Axis2P3D',#254,#255,#256) ;
#267=AXIS2_PLACEMENT_3D('Plane Axis2P3D',#264,#265,#266) ;
#271=AXIS2_PLACEMENT_3D('Circle Axis2P3D',#269,#270,$) ;
#280=AXIS2_PLACEMENT_3D('Circle Axis2P3D',#278,#279,$) ;
#295=AXIS2_PLACEMENT_3D('Cone Axis2P3D',#292,#293,#294) ;
#313=AXIS2_PLACEMENT_3D('Circle Axis2P3D',#311,#312,$) ;
#326=AXIS2_PLACEMENT_3D('Cone Axis2P3D',#323,#324,#325) ;
#330=AXIS2_PLACEMENT_3D('Circle Axis2P3D',#328,#329,$) ;
#343=AXIS2_PLACEMENT_3D('Plane Axis2P3D',#340,#341,#342) ;
#347=AXIS2_PLACEMENT_3D('Circle Axis2P3D',#345,#346,$) ;
#356=AXIS2_PLACEMENT_3D('Circle Axis2P3D',#354,#355,$) ;
#367=AXIS2_PLACEMENT_3D('Cylinder Axis2P3D',#364,#365,#366) ;
#385=AXIS2_PLACEMENT_3D('Circle Axis2P3D',#383,#384,$) ;
#397=AXIS2_PLACEMENT_3D('Circle Axis2P3D',#395,#396,$) ;
#410=AXIS2_PLACEMENT_3D('Cone Axis2P3D',#407,#408,#409) ;
#432=AXIS2_PLACEMENT_3D('Cone Axis2P3D',#429,#430,#431) ;
#40=PRODUCT_DEFINITION_SHAPE(' ',' ',#14) ;
#59=COMPOSITE_CURVE('Linea.1',(#58),.U.) ;
#71=COMPOSITE_CURVE('Linea.2',(#70),.U.) ;
#80=COMPOSITE_CURVE('Linea.3',(#79),.U.) ;
#58=COMPOSITE_CURVE_SEGMENT(.DISCONTINUOUS.,.T.,#57) ;
#70=COMPOSITE_CURVE_SEGMENT(.DISCONTINUOUS.,.T.,#69) ;
#79=COMPOSITE_CURVE_SEGMENT(.DISCONTINUOUS.,.T.,#78) ;
#31=APPROVAL_PERSON_ORGANIZATION(#25,#21,#19) ;
#25=PERSON_AND_ORGANIZATION(#22,#23) ;
#22=PERSON(' ',' ',' ',$,$,$) ;
#23=ORGANIZATION(' ',' ',' ') ;
#21=APPROVAL(#20,' ') ;
#20=APPROVAL_STATUS('not_yet_approved') ;
#19=APPROVAL_ROLE('APPROVER') ;
#13=DATE_AND_TIME(#11,#12) ;
#12=LOCAL_TIME(22,57,55.,#10) ;
#10=COORDINATED_UNIVERSAL_TIME_OFFSET(0,0,.AHEAD.) ;
#117=ORIENTED_EDGE('',*,*,#96,.F.) ;
#118=ORIENTED_EDGE('',*,*,#103,.T.) ;
#119=ORIENTED_EDGE('',*,*,#110,.T.) ;
#120=ORIENTED_EDGE('',*,*,#115,.F.) ;
#134=ORIENTED_EDGE('',*,*,#127,.F.) ;
#135=ORIENTED_EDGE('',*,*,#115,.T.) ;
#136=ORIENTED_EDGE('',*,*,#132,.T.) ;
#137=ORIENTED_EDGE('',*,*,#103,.F.) ;
#174=ORIENTED_EDGE('',*,*,#153,.F.) ;
#175=ORIENTED_EDGE('',*,*,#160,.T.) ;
#176=ORIENTED_EDGE('',*,*,#167,.T.) ;
#177=ORIENTED_EDGE('',*,*,#172,.F.) ;
#191=ORIENTED_EDGE('',*,*,#184,.F.) ;
#192=ORIENTED_EDGE('',*,*,#172,.T.) ;
#193=ORIENTED_EDGE('',*,*,#189,.T.) ;
#194=ORIENTED_EDGE('',*,*,#160,.F.) ;
#222=ORIENTED_EDGE('',*,*,#167,.F.) ;
#223=ORIENTED_EDGE('',*,*,#208,.T.) ;
#224=ORIENTED_EDGE('',*,*,#215,.T.) ;
#225=ORIENTED_EDGE('',*,*,#220,.F.) ;
#234=ORIENTED_EDGE('',*,*,#189,.F.) ;
#235=ORIENTED_EDGE('',*,*,#220,.T.) ;
#236=ORIENTED_EDGE('',*,*,#232,.T.) ;
#237=ORIENTED_EDGE('',*,*,#208,.F.) ;
#246=ORIENTED_EDGE('',*,*,#184,.T.) ;
#247=ORIENTED_EDGE('',*,*,#153,.T.) ;
#250=ORIENTED_EDGE('',*,*,#110,.F.) ;
#251=ORIENTED_EDGE('',*,*,#132,.F.) ;
#260=ORIENTED_EDGE('',*,*,#215,.F.) ;
#261=ORIENTED_EDGE('',*,*,#232,.F.) ;
#284=ORIENTED_EDGE('',*,*,#277,.F.) ;
#285=ORIENTED_EDGE('',*,*,#282,.F.) ;
#288=ORIENTED_EDGE('',*,*,#127,.T.) ;
#289=ORIENTED_EDGE('',*,*,#96,.T.) ;
#317=ORIENTED_EDGE('',*,*,#303,.T.) ;
#318=ORIENTED_EDGE('',*,*,#282,.T.) ;
#319=ORIENTED_EDGE('',*,*,#310,.F.) ;
#320=ORIENTED_EDGE('',*,*,#315,.F.) ;
#334=ORIENTED_EDGE('',*,*,#310,.T.) ;
#335=ORIENTED_EDGE('',*,*,#277,.T.) ;
#336=ORIENTED_EDGE('',*,*,#303,.F.) ;
#337=ORIENTED_EDGE('',*,*,#332,.F.) ;
#360=ORIENTED_EDGE('',*,*,#353,.T.) ;
#361=ORIENTED_EDGE('',*,*,#358,.T.) ;
#389=ORIENTED_EDGE('',*,*,#375,.T.) ;
#390=ORIENTED_EDGE('',*,*,#315,.T.) ;
#391=ORIENTED_EDGE('',*,*,#382,.F.) ;
#392=ORIENTED_EDGE('',*,*,#387,.F.) ;
#401=ORIENTED_EDGE('',*,*,#382,.T.) ;
#402=ORIENTED_EDGE('',*,*,#332,.T.) ;
#403=ORIENTED_EDGE('',*,*,#375,.F.) ;
#404=ORIENTED_EDGE('',*,*,#399,.F.) ;
#423=ORIENTED_EDGE('',*,*,#416,.T.) ;
#424=ORIENTED_EDGE('',*,*,#387,.T.) ;
#425=ORIENTED_EDGE('',*,*,#421,.F.) ;
#426=ORIENTED_EDGE('',*,*,#353,.F.) ;
#435=ORIENTED_EDGE('',*,*,#421,.T.) ;
#436=ORIENTED_EDGE('',*,*,#399,.T.) ;
#437=ORIENTED_EDGE('',*,*,#416,.F.) ;
#438=ORIENTED_EDGE('',*,*,#358,.F.) ;
#252=FACE_BOUND('',#249,.T.) ;
#290=FACE_BOUND('',#287,.T.) ;
#82=CLOSED_SHELL('Closed Shell',(#122,#139,#179,#196,#227,#239,#253,#263,#291,#322,#339,#363,#394,#406,#428,#440)) ;
#53=VECTOR('Line Direction',#52,1.) ;
#65=VECTOR('Line Direction',#64,1.) ;
#74=VECTOR('Line Direction',#73,1.) ;
#99=VECTOR('Line Direction',#98,1.) ;
#113=VECTOR('Line Direction',#112,1.) ;
#156=VECTOR('Line Direction',#155,1.) ;
#170=VECTOR('Line Direction',#169,1.) ;
#204=VECTOR('Line Direction',#203,1.) ;
#218=VECTOR('Line Direction',#217,1.) ;
#299=VECTOR('Line Direction',#298,1.) ;
#306=VECTOR('Line Direction',#305,1.) ;
#371=VECTOR('Line Direction',#370,1.) ;
#378=VECTOR('Line Direction',#377,1.) ;
#414=VECTOR('Line Direction',#413,1.) ;
#419=VECTOR('Line Direction',#418,1.) ;
#442=ADVANCED_BREP_SHAPE_REPRESENTATION('NONE',(#441),#46) ;
#49=SHAPE_REPRESENTATION(' ',(#48),#46) ;
#122=ADVANCED_FACE('PartBody',(#121),#87,.T.) ;
#139=ADVANCED_FACE('PartBody',(#138),#87,.T.) ;
#179=ADVANCED_FACE('PartBody',(#178),#144,.T.) ;
#196=ADVANCED_FACE('PartBody',(#195),#144,.T.) ;
#227=ADVANCED_FACE('PartBody',(#226),#201,.T.) ;
#239=ADVANCED_FACE('PartBody',(#238),#201,.T.) ;
#253=ADVANCED_FACE('PartBody',(#248,#252),#244,.T.) ;
#263=ADVANCED_FACE('PartBody',(#262),#258,.F.) ;
#291=ADVANCED_FACE('PartBody',(#286,#290),#268,.F.) ;
#322=ADVANCED_FACE('PartBody',(#321),#296,.T.) ;
#339=ADVANCED_FACE('PartBody',(#338),#327,.T.) ;
#363=ADVANCED_FACE('PartBody',(#362),#344,.T.) ;
#394=ADVANCED_FACE('PartBody',(#393),#368,.T.) ;
#406=ADVANCED_FACE('PartBody',(#405),#368,.T.) ;
#428=ADVANCED_FACE('PartBody',(#427),#411,.T.) ;
#440=ADVANCED_FACE('PartBody',(#439),#433,.T.) ;
#4=APPLICATION_PROTOCOL_DEFINITION('international standard','config_control_design',1994,#1) ;
#32=APPROVAL_DATE_TIME(#13,#21) ;
#441=MANIFOLD_SOLID_BREP('PartBody',#82) ;
#11=CALENDAR_DATE(2017,24,5) ;
#30=CC_DESIGN_APPROVAL(#21,(#16,#6,#14)) ;
#18=CC_DESIGN_DATE_AND_TIME_ASSIGNMENT(#13,#17,(#16)) ;
#29=CC_DESIGN_DATE_AND_TIME_ASSIGNMENT(#13,#28,(#14)) ;
#17=DATE_TIME_ROLE('classification_date') ;
#28=DATE_TIME_ROLE('creation_date') ;
#27=CC_DESIGN_PERSON_AND_ORGANIZATION_ASSIGNMENT(#25,#26,(#16)) ;
#33=CC_DESIGN_PERSON_AND_ORGANIZATION_ASSIGNMENT(#25,#34,(#6)) ;
#35=CC_DESIGN_PERSON_AND_ORGANIZATION_ASSIGNMENT(#25,#36,(#6,#14)) ;
#37=CC_DESIGN_PERSON_AND_ORGANIZATION_ASSIGNMENT(#25,#38,(#5)) ;
#26=PERSON_AND_ORGANIZATION_ROLE('classification_officer') ;
#34=PERSON_AND_ORGANIZATION_ROLE('design_supplier') ;
#36=PERSON_AND_ORGANIZATION_ROLE('creator') ;
#38=PERSON_AND_ORGANIZATION_ROLE('design_owner') ;
#39=CC_DESIGN_SECURITY_CLASSIFICATION(#16,(#6)) ;
#91=CIRCLE('generated circle',#90,7.5) ;
#107=CIRCLE('generated circle',#106,7.5) ;
#126=CIRCLE('generated circle',#125,7.5) ;
#131=CIRCLE('generated circle',#130,7.5) ;
#148=CIRCLE('generated circle',#147,8.5) ;
#164=CIRCLE('generated circle',#163,8.5) ;
#183=CIRCLE('generated circle',#182,8.5) ;
#188=CIRCLE('generated circle',#187,8.5) ;
#212=CIRCLE('generated circle',#211,5.5) ;
#231=CIRCLE('generated circle',#230,5.5) ;
#272=CIRCLE('generated circle',#271,13.5) ;
#281=CIRCLE('generated circle',#280,13.5) ;
#314=CIRCLE('generated circle',#313,14.) ;
#331=CIRCLE('generated circle',#330,14.) ;
#348=CIRCLE('generated circle',#347,13.5) ;
#357=CIRCLE('generated circle',#356,13.5) ;
#386=CIRCLE('generated circle',#385,14.) ;
#398=CIRCLE('generated circle',#397,14.) ;
#201=CONICAL_SURFACE('Cone',#200,5.5,0.785398163397) ;
#296=CONICAL_SURFACE('Cone',#295,0.,0.785398163397) ;
#327=CONICAL_SURFACE('Cone',#326,0.,0.785398163397) ;
#411=CONICAL_SURFACE('Cone',#410,0.,0.785398163397) ;
#433=CONICAL_SURFACE('Cone',#432,0.,0.785398163397) ;
#62=SHAPE_REPRESENTATION_RELATIONSHIP(' ',' ',#49,#60) ;
#443=SHAPE_REPRESENTATION_RELATIONSHIP(' ',' ',#49,#442) ;
#87=CYLINDRICAL_SURFACE('generated cylinder',#86,7.5) ;
#144=CYLINDRICAL_SURFACE('generated cylinder',#143,8.5) ;
#368=CYLINDRICAL_SURFACE('generated cylinder',#367,14.) ;
#3=DESIGN_CONTEXT(' ',#1,'design') ;
#96=EDGE_CURVE('',#93,#95,#91,.T.) ;
#103=EDGE_CURVE('',#93,#102,#100,.F.) ;
#110=EDGE_CURVE('',#102,#109,#107,.T.) ;
#115=EDGE_CURVE('',#95,#109,#114,.F.) ;
#127=EDGE_CURVE('',#95,#93,#126,.T.) ;
#132=EDGE_CURVE('',#109,#102,#131,.T.) ;
#153=EDGE_CURVE('',#150,#152,#148,.T.) ;
#160=EDGE_CURVE('',#150,#159,#157,.F.) ;
#167=EDGE_CURVE('',#159,#166,#164,.T.) ;
#172=EDGE_CURVE('',#152,#166,#171,.F.) ;
#184=EDGE_CURVE('',#152,#150,#183,.T.) ;
#189=EDGE_CURVE('',#166,#159,#188,.T.) ;
#208=EDGE_CURVE('',#159,#207,#205,.F.) ;
#215=EDGE_CURVE('',#207,#214,#212,.T.) ;
#220=EDGE_CURVE('',#166,#214,#219,.F.) ;
#232=EDGE_CURVE('',#214,#207,#231,.T.) ;
#277=EDGE_CURVE('',#274,#276,#272,.T.) ;
#282=EDGE_CURVE('',#276,#274,#281,.T.) ;
#303=EDGE_CURVE('',#302,#276,#300,.F.) ;
#310=EDGE_CURVE('',#309,#274,#307,.F.) ;
#315=EDGE_CURVE('',#302,#309,#314,.T.) ;
#332=EDGE_CURVE('',#309,#302,#331,.T.) ;
#353=EDGE_CURVE('',#350,#352,#348,.T.) ;
#358=EDGE_CURVE('',#352,#350,#357,.T.) ;
#375=EDGE_CURVE('',#374,#302,#372,.F.) ;
#382=EDGE_CURVE('',#381,#309,#379,.F.) ;
#387=EDGE_CURVE('',#374,#381,#386,.T.) ;
#399=EDGE_CURVE('',#381,#374,#398,.T.) ;
#416=EDGE_CURVE('',#350,#374,#415,.T.) ;
#421=EDGE_CURVE('',#352,#381,#420,.T.) ;
#116=EDGE_LOOP('',(#117,#118,#119,#120)) ;
#133=EDGE_LOOP('',(#134,#135,#136,#137)) ;
#173=EDGE_LOOP('',(#174,#175,#176,#177)) ;
#190=EDGE_LOOP('',(#191,#192,#193,#194)) ;
#221=EDGE_LOOP('',(#222,#223,#224,#225)) ;
#233=EDGE_LOOP('',(#234,#235,#236,#237)) ;
#245=EDGE_LOOP('',(#246,#247)) ;
#249=EDGE_LOOP('',(#250,#251)) ;
#259=EDGE_LOOP('',(#260,#261)) ;
#283=EDGE_LOOP('',(#284,#285)) ;
#287=EDGE_LOOP('',(#288,#289)) ;
#316=EDGE_LOOP('',(#317,#318,#319,#320)) ;
#333=EDGE_LOOP('',(#334,#335,#336,#337)) ;
#359=EDGE_LOOP('',(#360,#361)) ;
#388=EDGE_LOOP('',(#389,#390,#391,#392)) ;
#400=EDGE_LOOP('',(#401,#402,#403,#404)) ;
#422=EDGE_LOOP('',(#423,#424,#425,#426)) ;
#434=EDGE_LOOP('',(#435,#436,#437,#438)) ;
#121=FACE_OUTER_BOUND('',#116,.T.) ;
#138=FACE_OUTER_BOUND('',#133,.T.) ;
#178=FACE_OUTER_BOUND('',#173,.T.) ;
#195=FACE_OUTER_BOUND('',#190,.T.) ;
#226=FACE_OUTER_BOUND('',#221,.T.) ;
#238=FACE_OUTER_BOUND('',#233,.T.) ;
#248=FACE_OUTER_BOUND('',#245,.T.) ;
#262=FACE_OUTER_BOUND('',#259,.T.) ;
#286=FACE_OUTER_BOUND('',#283,.T.) ;
#321=FACE_OUTER_BOUND('',#316,.T.) ;
#338=FACE_OUTER_BOUND('',#333,.T.) ;
#362=FACE_OUTER_BOUND('',#359,.T.) ;
#393=FACE_OUTER_BOUND('',#388,.T.) ;
#405=FACE_OUTER_BOUND('',#400,.T.) ;
#427=FACE_OUTER_BOUND('',#422,.T.) ;
#439=FACE_OUTER_BOUND('',#434,.T.) ;
#61=GEOMETRIC_SET('NONE',(#59,#71,#80,#81)) ;
#60=GEOMETRICALLY_BOUNDED_SURFACE_SHAPE_REPRESENTATION('NONE',(#61),#46) ;
#45=UNCERTAINTY_MEASURE_WITH_UNIT(LENGTH_MEASURE(0.005),#41,'distance_accuracy_value','CONFUSED CURVE UNCERTAINTY') ;
#54=LINE('Line',#51,#53) ;
#66=LINE('Line',#63,#65) ;
#75=LINE('Line',#72,#74) ;
#100=LINE('Line',#97,#99) ;
#114=LINE('Line',#111,#113) ;
#157=LINE('Line',#154,#156) ;
#171=LINE('Line',#168,#170) ;
#205=LINE('Line',#202,#204) ;
#219=LINE('Line',#216,#218) ;
#300=LINE('Line',#297,#299) ;
#307=LINE('Line',#304,#306) ;
#372=LINE('Line',#369,#371) ;
#379=LINE('Line',#376,#378) ;
#415=LINE('Line',#412,#414) ;
#420=LINE('Line',#417,#419) ;
#2=MECHANICAL_CONTEXT(' ',#1,'mechanical') ;
#24=PERSONAL_ADDRESS(' ',' ',' ',' ',' ',' ',' ',' ',' ',' ',' ',' ',(#22),' ') ;
#244=PLANE('Plane',#243) ;
#258=PLANE('Plane',#257) ;
#268=PLANE('Plane',#267) ;
#344=PLANE('Plane',#343) ;
#43=PLANE_ANGLE_MEASURE_WITH_UNIT(PLANE_ANGLE_MEASURE(0.0174532925199),#42) ;
#7=PRODUCT_CATEGORY('part',$) ;
#9=PRODUCT_CATEGORY_RELATIONSHIP(' ',' ',#7,#8) ;
#6=PRODUCT_DEFINITION_FORMATION_WITH_SPECIFIED_SOURCE('',' ',#5,.NOT_KNOWN.) ;
#8=PRODUCT_RELATED_PRODUCT_CATEGORY('detail',$,(#5)) ;
#50=SHAPE_DEFINITION_REPRESENTATION(#40,#49) ;
#57=TRIMMED_CURVE('',#54,(#55),(#56),.T.,.CARTESIAN.) ;
#69=TRIMMED_CURVE('',#66,(#67),(#68),.T.,.CARTESIAN.) ;
#78=TRIMMED_CURVE('',#75,(#76),(#77),.T.,.CARTESIAN.) ;
#93=VERTEX_POINT('',#92) ;
#95=VERTEX_POINT('',#94) ;
#102=VERTEX_POINT('',#101) ;
#109=VERTEX_POINT('',#108) ;
#150=VERTEX_POINT('',#149) ;
#152=VERTEX_POINT('',#151) ;
#159=VERTEX_POINT('',#158) ;
#166=VERTEX_POINT('',#165) ;
#207=VERTEX_POINT('',#206) ;
#214=VERTEX_POINT('',#213) ;
#274=VERTEX_POINT('',#273) ;
#276=VERTEX_POINT('',#275) ;
#302=VERTEX_POINT('',#301) ;
#309=VERTEX_POINT('',#308) ;
#350=VERTEX_POINT('',#349) ;
#352=VERTEX_POINT('',#351) ;
#374=VERTEX_POINT('',#373) ;
#381=VERTEX_POINT('',#380) ;
#41=(LENGTH_UNIT()NAMED_UNIT(*)SI_UNIT(.MILLI.,.METRE.)) ;
#42=(NAMED_UNIT(*)PLANE_ANGLE_UNIT()SI_UNIT($,.RADIAN.)) ;
#44=(NAMED_UNIT(*)SI_UNIT($,.STERADIAN.)SOLID_ANGLE_UNIT()) ;
#46=(GEOMETRIC_REPRESENTATION_CONTEXT(3)GLOBAL_UNCERTAINTY_ASSIGNED_CONTEXT((#45))GLOBAL_UNIT_ASSIGNED_CONTEXT((#41,#42,#44))REPRESENTATION_CONTEXT(' ',' ')) ;
ENDSEC;
END-ISO-10303-21;
